Sunday, March 1, 2009

I Don't Belong Here (Solo) tab

I Don't Belong Here (Solo)


Petunjuk:
/ slide kepada chord tinggi
\ slide kepada chord rendah
h hammer on
p pull off
b bend
rb release bend
t tap(guna jari atau pick)
P.M palm mute
* artifical harmonic
(mana-mana petunjuk yg tak difahami, lihat bahagian "Teknik & Skills")

Intro

e|----------------------------------------12/19-15--15h17-17-|-----12-17--15-----------------|
B|-------10h12-12b-12b--12rb---------------------------------|---13----------18p17p15--------|
G|-----10--------------------12-12/14------------------------|-14---------------------16-17--|
D|---10-------------------------------14---------------------|-------------------------------|
A|-12--------------------------------------------------------|-------------------------------|
E|-----------------------------------------------------------|-------------------------------|
P.M...
(bunyi ogan sebenarnya ni...)
e|-------------------------------------------|------------------------------------------------|
B|-------------------------------------------|-17-15----17--15--------------15-18-17-15-------|
G|-17p16p14----14----------------------------|-------17--------17-14--14-17-------------17-14-|
D|----------17----17--------10-12-12b
p10----|------------------------------------------------|
A|--------------------10/12---------------12-|------------------------------------------------|
E|-------------------------------------------|------------------------------------------------|

e|----------15----------------------------------|------------------------------------------|
B|-------15----18-17-15-17-15-------15----------|-17-15----17--15--------------15-18-17-15-|
G|-14-17----------------------17-18----17-16-14-|-------17--------17-14--14-17-------------|
D|----------------------------------------------|------------------------------------------|
A|----------------------------------------------|------------------------------------------|
E|----------------------------------------------|------------------------------------------|

e|----------------15------------|
B|-------------15---18-17-15----|
G|17-14--14-17------------------|
D|---------------------------17-|
A|------------------------------|
E|------------------------------|

Licks 1

Lick 2
---------2x--------
e|--------------------------------------------------------------------------|-------------------|
B|--------------------------------------------------------------------------|---13-12-10--12-13-|
G|--------------------------------------------------------------------------|-12----------------|
D|----------------7----7-9--7-7-9-9b-9b-9rb-7-9--7-----------7--------------|-------------------|
A|-7-10-9-7--9-10---10-----------------------------7--7-9-10---10-9--7-10-9-|-------------------|
E|--------------------------------------------------------------------------|-------------------|

------------------2x-------------------
e|-10----10-12-13-p12--10-10-12-12b-12b-12rb-10-12b-12rb-10-12--10-------------10-----------------|
B|----13-----------------------------------------------------------10--10-12-13----13-12--10-9-10-|
G|------------------------------------------------------------------------------------------------|
D|------------------------------------------------------------------------------------------------|
A|------------------------------------------------------------------------------------------------|
E|------------------------------------------------------------------------------------------------|

Lick 3

(/ kat sini laju) (laju gak)
e|------------------------------------------------------------------------------12-|
B|-12-10-9--10-12-12/15--13h15p13-12-10--12-13-----13-12-10--12-13-13/15--13-15----|
G|----------------------------------------------12---------------------------------|
D|---------------------------------------------------------------------------------|
A|---------------------------------------------------------------------------------|
E|---------------------------------------------------------------------------------|

Lick 4

e|----17-15-13--13h15p13---------15-13-12-12h13p12---------13-12-10----------------------------|
B|-/17-------------------15--/15-------------------13--/13-------------------------10-12-13-12-|
G|-------------------------------------------------------------------------9-10-12-------------|
D|-------------------------------------------------------------------10-12---------------------|
A|---------------------------------------------------------------------------------------------|
E|---------------------------------------------------------------------------------------------|

P.M.......

e|----------|----17-15-13--13h15p13---------15-13-12-12h13p12---------------13-12-10-|
B|-10-13-12-|-/17-------------------15--/15-------------------13-12-13--/13----------|
G|----------|------------------------------------------------------------------------|
D|----------|------------------------------------------------------------------------|
A|----------|------------------------------------------------------------------------|
E|----------|------------------------------------------------------------------------|

e|-12-13--16b-16--16/24-24-|
B|-------------------------|
G|-------------------------|
D|-------------------------|
A|-------------------------|
E|-------------------------|

Solo

e|------------------------------------10----12--15-----------------------------------------------|
B|----10--8-8-10--8-8-12--8-8-13--8-8----13--------15-------------10----10-12/13--12-12-10-12-13-|
G|--------------------------------------------------------------------12-------------------------|
D|-7----------------------------------------------------------10-12------------------------------|
A|-----------------------------------------------------10/12-------------------------------------|
E|-----------------------------------------------------------------------------------------------|
P.M P.M P.M P.M

e|-12--------------------------------------------------------------------------------------------|
B|----13-12-13p12p10----10-----10------------------------10----10-12/13--12-12-10-12-13-15-12-13-|
G|-------------------12-----12----9-------------------------12-----------------------------------|
D|----------------------------------10-9-----------10-12-----------------------------------------|
A|---------------------------------------12--10-12-----------------------------------------------|
E|-----------------------------------------------------------------------------------------------|
P.M........

e|-17--17p15p13-15-15p13p12-----12/15-13-13-12-----------------------------------------------|
B|--------------------------15-----------------15-13-12--------------------------------------|
G|------------------------------------------------------14-12-10-9---------------------------|
D|-----------------------------------------------------------------12-10-9----10-------------|
A|-------------------------------------------------------------------------12----11b--12-11--|
E|-------------------------------------------------------------------------------------------|

e|----------------------------------------------------------------------------------|
B|-10--8-8-10--8-8-12--8-8-13--8-8-12--10-12-10h12p\8-10--8h10p\6-8-6-5-6p5---6\5---|
G|--------------------------------------------------------------------------7-----7-|
D|----------------------------------------------------------------------------------|
A|----------------------------------------------------------------------------------|
E|----------------------------------------------------------------------------------|
P.M P.M P.M P.M

*
e|----------------------------------------------------------------------|
B|-----8------10------12------10--8-6-8--6h8p\5-6-5---------------------|
G|-7-7----7-7-----7-7-----7-7-----------------------7-5-4-5-4---4-----5-|
D|------------------------------------------------------------7---7-5---|
A|----------------------------------------------------------------------|
E|----------------------------------------------------------------------|

e|-----------------------------------------------------------------12/15-13-13-12----------|
B|----------------------------------------------------------10--12----------------15-13-12-|
G|-0-0-0-0-5--0-0-0-0-7--0-0-5--0-0-7--0-0-5--0-0-7--5-7--7--------------------------------|
D|-0-0-0-0-5--0-0-0-0-7--0-0-5--0-0-7--0-0-5--0-0-7----------------------------------------|
A|-----------------------------------------------------------------------------------------|
E|-----------------------------------------------------------------------------------------|

e|------------------------------------19--22-19-|------------------------|------------------------|
B|---------------------------13-15-17-----------|-10--12-13---12-10-7-10-|-10--12-13---12-10-7--10|
G|-14-12--12-10-9----9-10-12--------------------|------------------------|------------------------|
D|----------------12----------------------------|-7---9--10---9--7--5-7--|-7---9--10---9--7--5--7-|
A|----------------------------------------------|------------------------|------------------------|
E|----------------------------------------------|------------------------|------------------------|

e|--------------------------------------|--------------------------------12-13-15-13-12-|
B|-10\8---------------------------------|-----------------------------------------------|
G|------10--11--13-15--13-11-10-8--10-7-|---------12-10-9-10-9----9--14-----------------|
D|-7-\5---------------------------------|----9-10--------------12-----------------------|
A|------7---8---10-12--10-8--7--5--7--5-|-12--------------------------------------------|
E|--------------------------------------|-----------------------------------------------|
P.M.... P.M...

---------------2x--------------
e|--------------------------15-----|-12-8----10-8----12-8----13-8----|
B|-15-13-12----12-13-15-15b----15b-|------10------10------10------10-|
G|----------13---------------------|---------------------------------|
D|---------------------------------|---------------------------------|
A|---------------------------------|---------------------------------|
E|---------------------------------|---------------------------------|

e|-12/15-10-12-13----------10-12-13-10-10-|-10-7---8-7---10-7---12-7-7--10-7---8-7---10-7---7|
B|----------------10-12-13----------------|------8-----8------8--------------8-----8------8--|
G|----------------------------------------|--------------------------------------------------|
D|----------------------------------------|--------------------------------------------------|
A|----------------------------------------|--------------------------------------------------|
E|----------------------------------------|--------------------------------------------------|

*
e|-8-8-12p8--8-----------------------|----17----19----20-20p19p17-------------------------------|
B|--------10---10--------------------|-17----17----17-------------20b--20-18-17-----------------|
G|----------------9---------------12-|------------------------------------------19-17-16--17-19-|
D|------------------12-10-9----------|----------------------------------------------------------|
A|--------------------------12-10----|----------------------------------------------------------|
E|-----------------------------------|----------------------------------------------------------|

e|-------------------------------------17-19----17-19-20-21b--21b-20-|
B|----20b-20b-----------------17-18-20-------20----------------------|
G|-17----------------16-17-19----------------------------------------|
D|-------------17-19-------------------------------------------------|
A|-------------------------------------------------------------------|
E|-------------------------------------------------------------------|

Lick 5

e|----17-15-13--13h15p13---------15-13-12-12h13p12---------13-12-10---------------------------|
B|-/17-------------------15--/15-------------------13--/13-----------13-12-10-----------------|
G|----------------------------------------------------------------------------12-10-9---------|
D|------------------------------------------------------------------------------------12-10-9-|
A|--------------------------------------------------------------------------------------------|
E|--------------------------------------------------------------------------------------------|

e|------------|----17-15-13--13h15p13---------15-13-12-12h13p12---------13-12-10-|
B|------------|-/17-------------------15--/15-------------------13--/13----------|
G|------------|------------------------------------------------------------------|
D|------------|------------------------------------------------------------------|
A|-11b--12-11-|------------------------------------------------------------------|
E|------------|------------------------------------------------------------------|

e|-------------12-13-15-------------------------------------|
B|-13-12-13-15----------12-10-12-13-------------------------|
G|----------------------------------10-9-10-12--7-9-10--7-9-|
D|----------------------------------------------------------|
A|----------------------------------------------------------|
E|----------------------------------------------------------|

Lick 6


(guna tgn. kanan)
e|--------------------10-----10-12-|-10-12-12b-12b-rb12-10-12b-rb12-10-12-t17p12-----------|
B|-10-13-12-10--12-13-----13-------|-------------------------------------------------------|
G|---------------------------------|-------------------------------------------------------|
D|---------------------------------|-------------------------------------------------------|
A|---------------------------------|-------------------------------------------------------|
E|---------------------------------|-------------------------------------------------------|

e|-10-12-12b-12b-rb12-10-12b-rb12-10-12--10--------------10-----------------|
B|------------------------------------------10--10-12-13----13-12--10-13-12-|
G|--------------------------------------------------------------------------|
D|--------------------------------------------------------------------------|
A|--------------------------------------------------------------------------|
E|--------------------------------------------------------------------------|

Lick 7

e|-------------------10----10-12--13p12p10-12-|-10-12-12b-12b-rb12-10-12b-rb12-10-12-|
B|-13-12h\-10--12-13----13--------------------|--------------------------------------|
G|--------------------------------------------|--------------------------------------|
D|--------------------------------------------|--------------------------------------|
A|--------------------------------------------|--------------------------------------|
E|--------------------------------------------|--------------------------------------|

e|-10-12-12b-12b-rb12-10-12b-rb12-10-12--10----------------10--------------17-|
B|------------------------------------------10----10-12-13----13-12--10/17----|
G|----------------------------------------------12----------------------------|
D|----------------------------------------------------------------------------|
A|----------------------------------------------------------------------------|
E|----------------------------------------------------------------------------|

Outro

e|----------------------------------------rb12/19-15-/17-17-|----------12-13-15-13-12----|
B|----------------------------------------------------------|-12-13-15----------------15-|
G|------------9/10----9-10-/12-/14-14-14\-------------------|----------------------------|
D|-------9-10------12---------------------------------------|----------------------------|
A|-10-12----------------------------------------------------|----------------------------|
E|----------------------------------------------------------|----------------------------|

e|------------------------------------------------------------------16b-16b-|
B|-13----13----------13-----------------------------------------------------|
G|----16----16-14-16----16-14-16-14b(masa bend tu petik
5x)-rb14------------|
D|---------------------------------------------------------------14---------|
A|--------------------------------------------------------------------------|
E|--------------------------------------------------------------------------|

e|-12/15-13-12-13p12----------------------------------------------------------------------|
B|-------------------15-13-12-13p12---------------------------10-12-12b-12b-/15-13-12--10-|
G|----------------------------------14-12-14--12/14---------10----------------------------|
D|--------------------------------------------------14----10------------------------------|
A|------------------------------------------------------12--------------------------------|
E|----------------------------------------------------------------------------------------|


==============================================================================================

No comments:

Ebook

Loading...